Woodman Stage

From Video Game Music Preservation Foundation Wiki
Jump to: navigation, search
Woodman Stage
Output - NES.svg
Mega Man 2 - NES - Wood Man Stage.png
Composer Takashi Tateishi
Arranger Takashi Tateishi
Programmer Yoshihiro Sakaguchi
Released 1988-12-24
Length 0:36
BPM 180
Format NSF.png
Game Mega Man II (NES)
Title Origin Official
Loops Yes

Woodman Stage is played in Woodman's Stage. It begins with a bit of a jungle sound.

The track appears on the official soundtrack album, from which the title is derived. It is track 4 in the NSF file.

Sheet Music

Guitar Tabs

Tabbed by: Not So Great Juja (Paul Horses)

Key:
~ = vibrato
p = pull-off
h = hammer-on
/ = slide
pm = palm-mute
tr = tremolo picking

Any questions or comments -
please, E-mail me at: TheDeviLisDavidHerbert@gmail.com

First there's a drum intro. Also, you'll just
have to listen to the song to get the rhythm of the bass down, and there are a lot
more bass notes than I have room to tab out.

* this is where you start repeating the song after you get to the end.

e|---------7-7--7-7*--------------------9-|
B|-13tr/0----------*10--10-9-10-7--7-10---|
G|-----------------*----------------------|
D|-----------------*----------------------|
A|-----------------*----------------------|
E|-----------------*----------------------|
 |                                        |
e|-----------------*--------------------5-|
B|--------9-9--9-9-*7----7-5-7-------7----|
G|-14tr/1----------*-----------6---6------|
D|-----------------*----------------------|
A|-----------------*----------------------|
E|-----------------*----------------------|
 |                                        |
G|-----------------*----------------------|
D|-16tr/3-2-2------*4-444-444-444-444-444-|
A|-----------------*----------------------|
E|-----------------*----------------------|  

====================================================

e|-7--7----9-7--7----7--7-9-7----------------------|
B|------10--------10----------10-9-9-10-9-7--------|
G|-------------------------------------------------|
D|-------------------------------------------------|
A|-------------------------------------------------|
E|-------------------------------------------------|
 |                                                 |
e|---------5---------------------------------------|
B|-8--8-7----8--8-7-8--8-9-9----------------9-10-9-|
G|----------------------------6-6------------------|
D|-------------------------------------------------|
A|-------------------------------------------------|
E|-------------------------------------------------|
 |                                                 |
G|-------------------------------------------------|
D|5-555-555-555-555-2-222-3-333-333-4--6--4--7--4--|
A|-------------------------------------------------|
E|-------------------------------------------------|

====================================================

e|-7-7--7-7-----------------------9-|
B|----------10-10--10-9-10-7--7-10--|
G|----------------------------------|
D|----------------------------------|
A|----------------------------------|
E|----------------------------------|
 |                                  |
e|--------------------------------5-|
B|-9-9--9-9--7--7--7-5-7--------7---|
G|------------------------6--6------|
D|----------------------------------|
A|----------------------------------|
E|----------------------------------|
 |                                  |
G|----------------------------------|
D|-2-2-222-2-4-444-444-444-444-444--|
A|----------------------------------|
E|----------------------------------|

====================================================

e|-7--7----9-7--7----7--7-9-7----------------------|
B|------10--------10----------10-9-9-10-9-7--------|
G|-------------------------------------------------|
D|-------------------------------------------------|
A|-------------------------------------------------|
E|-------------------------------------------------|
 |                                                 |
e|---------5---------------------------------------|
B|-8--8-7----8--8-7-8--8-9-9----------------9-10-9-|
G|----------------------------6-6------------------|
D|-------------------------------------------------|
A|-------------------------------------------------|
E|-------------------------------------------------|
 |                                                 |
G|-------------------------------------------------|
D|5-555-555-555-555-2-222-3-333-333-4--6--4--7--4--|
A|-------------------------------------------------|
E|-------------------------------------------------|

====================================================

Both guitars play the same thing here, so I'm only going to tab
it on one line.

e|-7-7--7-7----------------------9--|
B|-----------10--10-9-10-7--7-10----|
G|----------------------------------|
D|----------------------------------|
A|----------------------------------|
E|----------------------------------|
 |                                  |
e|----------------------------------|
B|-9-9--9-9--(same as above)--------|
G|----------------------------------|
D|----------------------------------|
A|----------------------------------|
E|----------------------------------|
 |                                  |
G|----------------------------------|
D|-2-2-222-2-0-000-000-000-000-000--|
A|----------------------------------|
E|----------------------------------| 

=========================================================  

e|-7------------7---8--8-7-8--8-8----8--16tr/3-9-9--9-9-|
B|-----10---7-9-------------------10--------------------|
G|--------9---------------------------------------------|
D|------------------------------------------------------|
A|------------------------------------------------------|
E|------------------------------------------------------|
 |                                                      |
e|--------------------------------------14tr/1----------|
B|---(still the same as above)-----------------9-9--9-9-|
G|------------------------------------------------------|
D|------------------------------------------------------|
A|------------------------------------------------------|
E|------------------------------------------------------|
 |                                                      |
G|------------------------------------------------------|
D|-2-222-222-222-22-3-333-333-333-333---444-4443-3------|
A|------------------------------------------------------|
E|------------------------------------------------------|

==========================================================

Then it just repeats after the asterisks.
Here's a simple guitar tab of a way to play the two guitar parts together.
* again, repeat from here.

e|--------7-7---7-7-*5---5-4-5-2---2-5--9-7---7-5--9-7---7-5-7---7-9-7----------------------|
B|-13tr/0-9-9---9-9-*7---7-5-7-2---2-7-10-8---8-7-10-8---8-7-8---8-9-9-10-9-9-10-9-7-9-10-9-|
G|-14tr/1-----------*--------------------------------------------------6--6-----------------|
D|------------------*-----------------------------------------------------------------------|
A|------------------*-----------------------------------------------------------------------|
E|------------------*-----------------------------------------------------------------------|

e|-7-7---7-7--5-5-5-4-5-2---2-5--9-7---7-5--9-7---7-5-7---7-9-7----------------------|
B|-9-9---9-9--7-7-7-5-7-2---2-7-10-8---8-7-10-8---8-7-8---8-9-9-10-9-9-10-9-7-9-10-9-|
G|--------------------------------------------------------------6--6-----------------|
D|-----------------------------------------------------------------------------------|
A|-----------------------------------------------------------------------------------|
E|-----------------------------------------------------------------------------------|

e|-7-7--7-7----------------------9-7-------------7---8--8-7-8--8-8----8--16tr/3-9-9--9-9-|
B|-9-9--9-9--10--10-9-10-7--7-10--------10---7-9-------------------10----19tr/6-9-9--9-9-|
G|-----------------------------------------9---------------------------------------------|
D|---------------------------------------------------------------------------------------|
A|---------------------------------------------------------------------------------------|
E|---------------------------------------------------------------------------------------|

Links