Terra's Theme

From Video Game Music Preservation Foundation Wiki
Jump to: navigation, search
Terra's Theme
Output - SNES.svg
Final Fantasy 6 - SNES - Terra's Theme.png
Composer Nobuo Uematsu
Arranger Nobuo Uematsu
Programmer Minoru Akao
Released 1994-04-02
Length 1:51
Format SPC.png
Game Final Fantasy III (SNES)
Title Origin Official
Loops Yes

Terra's Theme, also known as Tina, is the leitmotif for Terra in Final Fantasy III (SNES). It is used at the overworld music in the first half of the game that is centered around Terra. The song begins with a soft string and percussion intro that raises in volume and then features a single woodwind melody. A softer version of the music is used in third movement of Omen, during the opening credits, and a more up-beat remix is used later in the game in the track Searching For Friends.

Title

The song's title varies depending on your source. This site uses the most recent American release of the official soundtrack.

Title Transliteration Source
Terra's Theme US iTunes soundtrack
Tina US OSV
ティナのテーマ (Tina no Tema) Tina's Theme Japan OSV

Games

The following games include the song as well, but they emulate the music and sound the same.

  • Final Fantasy Anthology PAL (PS1)
  • Final Fantasy VI (AND)
  • Final Fantasy VI (FOS)
  • Final Fantasy VI (GBA)
  • Final Fantasy VI (PS1)
  • Final Fantasy VI (PS3)
  • Final Fantasy VI (PSP)
  • Final Fantasy VI (PSV)
  • Final Fantasy VI (WII)
  • Final Fantasy VI (WIIU)

Album Appearances

Terra's Theme appears on the Final Fantasy VI Original Sound Version album under the name "Tina" (her name in the Japanese version). There is also an orchestrated version of the tune on Final Fantasy VI: Grand Finale as the second half of the first track, again called "Tina".

Sheet Music

Guitar Tabs

Lead
     H.              H.              H.              H.
E||---------------|---------------|---------------|---------------|
B||---------------|---------------|---------------|---------------|
G||---------------|---------------|---------------|---------------|
D||---------------|---------------|---------------|---------------|
A||---------------|---------------|---------------|---------------|
E||---------------|---------------|---------------|---------------| 

  H.              H.              H.              H.
---------------|---------------|---------------|---------------|
---------------|---------------|---------------|---------------|
---------------|---------------|---------------|---------------|
---------------|---------------|---------------|---------------|
---------------|---------------|---------------|---------------|
---------------|---------------|---------------|---------------|

  Q    Q     E  E     H        E  E     Q    Q    E  E      Q    Q    E  E
-------------------|-----------------|------------------|-------------------|
-------------------|-----------7--8--|--7---------------|-------------------|
----------------7--|--9--------------|-------9----7--9--|-------------------|
--7----9----10-----|-----------------|------------------|--10----9----7--5--|
-------------------|-----------------|------------------|-------------------|
-------------------|-----------------|------------------|-------------------|

  H.              H        Q       H.              H.
---------------|----------------|---------------|---------------|
---------------|----------------|---------------|---------------|
---------------|----------------|---------------|---------------|
--7------------|--L-------------|---------------|---------------|
---------------|----------------|---------------|---------------|
---------------|----------------|---------------|---------------|

  Q    Q     E  E     H        E  E     Q    Q    E  E     H.
-------------------|-----------------|------------------|---------------|
-------------------|-----------7--8--|--7---------------|---------------|
----------------7--|--9--------------|-------9----9--8--|--9------------|
--7----9----10-----|-----------------|------------------|---------------|
-------------------|-----------------|------------------|---------------|
-------------------|-----------------|------------------|---------------|

  H.              H        Q       H.              H.
---------------|----------------|---------------|---------------|
---------------|----------------|---------------|---------------|
--L------------|--L-------------|---------------|---------------|
---------------|----------------|---------------|---------------|
---------------|----------------|---------------|---------------|
---------------|----------------|---------------|---------------|

  Q    Q     E  E     H        E  E     Q    Q    E  E      Q    Q    E   E
-------------------|-----------------|------------------|--------------------|
-------------------|-----------7--8--|--7---------------|--------------------|
----------------7--|--9--------------|-------9----7--9--|--------------------|
--7----9----10-----|-----------------|------------------|--10----9----7------|
-------------------|-----------------|------------------|----------------10--|
-------------------|-----------------|------------------|--------------------|

  H.              H        Q       H.              H.
---------------|----------------|---------------|---------------|
---------------|----------------|---------------|---------------|
---------------|----------------|---------------|---------------|
--7------------|--L-------------|---------------|---------------|
---------------|----------------|---------------|---------------|
---------------|----------------|---------------|---------------|

  H        Q       Q.     E  E  E     H        Q       H        Q
----------------|------------------|----------------|----------------|
----------------|------------------|-----------5----|----------------|
--5--------5----|--7------5--4-----|----------------|--4--------7----|
----------------|---------------7--|--5-------------|----------------|
----------------|------------------|----------------|----------------|
----------------|------------------|----------------|----------------|

  H        Q       H        Q       H.              H.
----------------|----------------|---------------|---------------|
----------------|----------------|---------------|---------------|
--5--------4----|----------------|---------------|---------------|
----------------|--7--------5----|--7------------|--L------------|
----------------|----------------|---------------|---------------|
----------------|----------------|---------------|---------------|

  H        Q       H        Q        Q.      Q     E      Q     E   Q     E
----------------|----------------|--17------------17--|--15----14------------|
----------------|----------------|----------17--------|------------17----15--|
----------------|----------------|--------------------|----------------------|
----------------|----------------|--------------------|----------------------|
----------------|----------------|--------------------|----------------------|
----------------|----------------|--------------------|----------------------|

   E   E   E   Q     E      Q.      Q.         Q.      Q     E
--------------------14--|--15------15------|--17------------17--|
--17--13--15--17--------|------------------|----------17--------|
------------------------|------------------|--------------------|
------------------------|------------------|--------------------|
------------------------|------------------|--------------------|
------------------------|------------------|--------------------|

   Q     E   Q     E      Q     E   E   E   E      Q.      Q.
--15----14------------|--------12--------------|------------------|
------------17----15--|--13--------12----------|------------------|
----------------------|----------------14--12--|--14------14------|
----------------------|------------------------|------------------|
----------------------|------------------------|------------------|
----------------------|------------------------|------------------|

   Q.      Q     E      Q     E   Q     E      E   E   E   Q     E
--17------------17--|--15----14------------|--------------------14--|
----------17--------|------------17----15--|--17--13--15--17--------|
--------------------|----------------------|------------------------|
--------------------|----------------------|------------------------|
--------------------|----------------------|------------------------|
--------------------|----------------------|------------------------|

   Q.      Q.         Q.      Q     E      Q     E   Q     E
--15------15------|--17------------17--|--15----14------------|
------------------|----------17--------|------------17----15--|
------------------|--------------------|----------------------|
------------------|--------------------|----------------------|
------------------|--------------------|----------------------|
------------------|--------------------|----------------------|

   Q     E   E   E   E      Q.      Q.        H        Q       H        Q
--------12--------------|------------------|----------------|----------------|
--13--------12----------|------------------|----------------|----------------|
----------------14--12--|--14------14------|----------------|----------------|
------------------------|------------------|----------------|----------------|
------------------------|------------------|----------------|----------------|
------------------------|------------------|----------------|----------------|

  H        Q       H        Q
----------------|----------------||
----------------|----------------||
----------------|----------------||
----------------|----------------||
----------------|----------------||
----------------|----------------||

Duration Legend
---------------
W - whole
H - half
Q - quarter
E - 8th
S - 16th
T - 32nd
X - 64th
. - note dotted
|-n-|  - n-tuplets



Rhythm
     H        Q       H        Q       H        Q       H        Q
E||--5--------3----|--1--------0----|----------------|----------------|
B||----------------|----------------|--3--------1----|----------------|
G||----------------|----------------|----------------|--3-------------|
D||----------------|----------------|----------------|-----------3----|
A||----------------|----------------|----------------|----------------|
E||----------------|----------------|----------------|----------------|

  E  E  E  E  E  E     E  E  E  E  E  E     E  E  E  E  E  E
--------------------|--------------------|--------------------|
-----------1--------|-----------1--------|-----------1--------|
--------2-----2-----|--------2-----2-----|--------2-----2-----|
-----2-----------2--|-----2-----------2--|-----2-----------2--|
--0-----------------|--0-----------------|--0-----------------|
--------------------|--------------------|--------------------|

  E  E  E  E  E  E     E  E  E  E  E  E     E  E  E  E  E  E
--------------------|--------------------|--------------------|
-----------1--------|-----------1--------|-----------1--------|
--------2-----2-----|--------2-----2-----|--------2-----2-----|
-----2-----------2--|-----2-----------2--|-----2-----------2--|
--0-----------------|--0-----------------|--0-----------------|
--------------------|--------------------|--------------------|

  E  E  E  E  E  E     E  E  E  E  E  E     E  E  E  E  E  E
--------------------|--------------------|--------------------|
-----------1--------|-----------1--------|-----------1--------|
--------2-----2-----|--------2-----2-----|--------2-----2-----|
-----2-----------2--|-----2-----------2--|-----2-----------2--|
--0-----------------|--0-----------------|--0-----------------|
--------------------|--------------------|--------------------|

  E  E  E  E  E  E     E  E  E  E  E  E     E  E  E  E  E  E
--------------------|--------------------|--------------------|
-----------1--------|-----------1--------|-----------1--------|
--------2-----2-----|--------2-----2-----|--------2-----2-----|
-----2-----------2--|-----2-----------2--|-----2-----------2--|
--0-----------------|--0-----------------|--0-----------------|
--------------------|--------------------|--------------------|

  E  E  E  E  E  E     E  E  E  E  E  E     E  E  E  E  E  E
--------------------|--------------------|--------------------|
-----------1--------|-----------1--------|-----------1--------|
--------2-----2-----|--------2-----2-----|--------2-----2-----|
-----2-----------2--|-----2-----------2--|-----2-----------2--|
--0-----------------|--0-----------------|--0-----------------|
--------------------|--------------------|--------------------|

  E  E  E  E  E  E     E  E  E  E  E  E     E  E  E  E  E  E
--------------------|--------------------|--------------------|
-----------1--------|-----------1--------|-----------1--------|
--------2-----2-----|--------2-----2-----|--------2-----2-----|
-----2-----------2--|-----2-----------2--|-----2-----------2--|
--0-----------------|--0-----------------|--0-----------------|
--------------------|--------------------|--------------------|

  E  E  E  E  E  E     E  E  E  E  E  E     E  E  E  E  E  E
--------------------|--------------------|--------------------|
-----------1--------|-----------1--------|-----------1--------|
--------2-----2-----|--------2-----2-----|--------2-----2-----|
-----2-----------2--|-----2-----------2--|-----2-----------2--|
--0-----------------|--0-----------------|--0-----------------|
--------------------|--------------------|--------------------|

  E  E  E  E  E  E     E  E  E  E  E  E     E  E  E  E  E  E
--------------------|--------------------|--------------------|
-----------1--------|-----------1--------|-----------1--------|
--------2-----2-----|--------2-----2-----|--------2-----2-----|
-----2-----------2--|-----2-----------2--|-----2-----------2--|
--0-----------------|--0-----------------|--0-----------------|
--------------------|--------------------|--------------------|

  E  E  E  E  E  E     E  E  E  E  E  E     E  E  E  E  E  E
--------------------|--------------------|--------------------|
-----------1--------|-----------1--------|-----------1--------|
--------2-----2-----|--------2-----2-----|--------2-----2-----|
-----2-----------2--|-----2-----------2--|-----2-----------2--|
--0-----------------|--0-----------------|--0-----------------|
--------------------|--------------------|--------------------|

  E  E  E  E  E  E     E  E  E  E  E  E     E  E  E  E  E  E
--------------------|--------------------|--------------------|
-----------1--------|-----------1--------|-----------1--------|
--------2-----2-----|--------2-----2-----|--------2-----2-----|
-----2-----------2--|-----3-----------3--|-----3-----------3--|
--0-----------------|--------------------|--------------------|
--------------------|--1-----------------|--1-----------------|

  E  E  E  E  E  E     E  E  E  E  E  E     E  E  E  E  E  E
--------------------|--------------------|--------------------|
-----------0--------|-----------0--------|--------------------|
--------0-----0-----|--------0-----0-----|-----------2--------|
-----2-----------2--|-----2-----------2--|-----0--3-----3--0--|
--------------------|--------------------|--0-----------------|
--0-----------------|--0-----------------|--------------------|

  E  E  E  E  E  E     E  E  E  E  E  E     E  E  E  E  E  E
--------------------|--------------------|--------------------|
-----------0--------|-----------1--------|-----------1--------|
--------0-----0-----|--------2-----2-----|--------2-----2-----|
-----2-----------2--|-----2-----------2--|-----2-----------2--|
--------------------|--0-----------------|--0-----------------|
--0-----------------|--------------------|--------------------|

  E  E  E  E  E  E     E  E  E  E  E  E     E  E  E  E  E  E
--------------------|--------------------|--------------------|
-----------1--------|-----------1--------|-----------1--------|
--------2-----2-----|--------2-----2-----|--------2-----2-----|
-----2-----------2--|-----2-----------2--|-----2-----------2--|
--0-----------------|--0-----------------|--0-----------------|
--------------------|--------------------|--------------------|

  E  E  E  E  E  E     E  E  E  E  E  E     E  E  E  E  E  E
-----------0--------|-----------0--------|--------------------|
--------0-----0-----|--------1-----1-----|-----------0--------|
-----0-----------0--|-----0-----------0--|--------0-----0-----|
--2-----------------|--------------------|-----0-----------0--|
--------------------|--3-----------------|--------------------|
--------------------|--------------------|--3-----------------|

  E  E  E  E  E  E     E  E  E  E  E  E     E  E  E  E  E  E
--------------------|-----------0--------|--------------------|
-----------1--------|--------1-----1-----|-----------------0--|
--------2-----2-----|-----0-----------0--|--------2-----0-----|
-----2-----------2--|--------------------|-----3--------------|
--0-----------------|--3-----------------|--------------------|
--------------------|--------------------|--1--------3--------|

  E  E  E  E  E  E     E  E  E  E  E  E     E  E  E  E  E  E
--------------------|--------------------|-----------0--------|
-----------1--------|-----------1--------|--------0-----0-----|
--------2-----2-----|--------2-----2-----|-----0-----------0--|
-----2-----------2--|-----2-----------2--|--2-----------------|
--0-----------------|--0-----------------|--------------------|
--------------------|--------------------|--------------------|

  E  E  E  E  E  E     E  E  E  E  E  E     E  E  E  E  E  E
-----------0--------|--------------------|--------------------|
--------1-----1-----|-----------0--------|-----------1--------|
-----0-----------0--|--------0-----0-----|--------2-----2-----|
--------------------|-----0-----------0--|-----2-----------2--|
--3-----------------|--------------------|--0-----------------|
--------------------|--3-----------------|--------------------|

  E  E  E  E  E  E     E  E  E  E  E  E     E  E  E  E  E  E
-----------0--------|--------------------|--------------------|
--------1-----1-----|-----------------0--|-----------1--------|
-----0-----------0--|--------2-----0-----|--------2-----2-----|
--------------------|-----3--------------|-----2-----------2--|
--3-----------------|--------------------|--0-----------------|
--------------------|--1--------3--------|--------------------|

  E  E  E  E  E  E     E  E  E  E  E  E     E  E  E  E  E  E
--------------------|--------------------|--------------------|
-----------1--------|-----------1--------|-----------1--------|
--------2-----2-----|--------2-----2-----|--------2-----2-----|
-----2-----------2--|-----2-----------2--|-----2-----------2--|
--0-----------------|--0-----------------|--0-----------------|
--------------------|--------------------|--------------------|

  E  E  E  E  E  E
--------------------||
-----------1--------||
--------2-----2-----||
-----2-----------2--||
--0-----------------||
--------------------||

Duration Legend
---------------
W - whole
H - half
Q - quarter
E - 8th
S - 16th
T - 32nd
X - 64th
. - note dotted
|-n-|  - n-tuplets



Strums
      E   E   Q     E   E      E   E   E   E   E   E      E   E   Q     E   E
E||--20--17----------------|--17----------------------|--13--------------------|
B||--17------17--------17--|------17--------------17--|------15----------------|
G||----------------19------|--17------19--17--19------|--14------14----12--14--|
D||------------------------|--------------------------|------------------------|
A||------------------------|--------------------------|------------------------|
E||------------------------|--------------------------|------------------------|

                                   ^     ^             ^     ^
   E   E   E   E   E   E     Q     Q     Q       Q     Q     Q
--12----------10----------|-------12----17----|-------12----17----|
------13----------11------|-------13----13----|-------13----13----|
--12------12--10------10--|-------14----14----|-------14----14----|
--------------------------|-------------------|-------------------|
--------------------------|-------------------|-------------------|
--------------------------|-------------------|-------------------|

        ^     ^             ^     ^
  Q     Q     Q       Q     Q     Q       H.              H.
-------12----17----|-------12----17----|---------------|---------------|
-------13----13----|-------13----13----|---------------|---------------|
-------14----14----|-------14----14----|---------------|---------------|
-------------------|-------------------|---------------|---------------|
-------------------|-------------------|---------------|---------------|
-------------------|-------------------|---------------|---------------|

                                        ^     ^             ^     ^
  H.              H.              Q     Q     Q       Q     Q     Q
---------------|---------------|-------12----17----|-------12----17----|
---------------|---------------|-------13----13----|-------13----13----|
---------------|---------------|-------14----14----|-------14----14----|
---------------|---------------|-------------------|-------------------|
---------------|---------------|-------------------|-------------------|
---------------|---------------|-------------------|-------------------|

        ^     ^             ^     ^
  Q     Q     Q       Q     Q     Q       H.              H.
-------12----17----|-------12----17----|---------------|---------------|
-------13----13----|-------13----13----|---------------|---------------|
-------14----14----|-------14----14----|---------------|---------------|
-------------------|-------------------|---------------|---------------|
-------------------|-------------------|---------------|---------------|
-------------------|-------------------|---------------|---------------|

                                        ^     ^             ^     ^
  H.              H.              Q     Q     Q       Q     Q     Q
---------------|---------------|-------12----17----|-------12----17----|
---------------|---------------|-------13----13----|-------13----13----|
---------------|---------------|-------14----14----|-------14----14----|
---------------|---------------|-------------------|-------------------|
---------------|---------------|-------------------|-------------------|
---------------|---------------|-------------------|-------------------|

        ^     ^             ^     ^
  Q     Q     Q       Q     Q     Q       H.              H.
-------12----17----|-------12----17----|---------------|---------------|
-------13----13----|-------13----13----|---------------|---------------|
-------14----14----|-------14----14----|---------------|---------------|
-------------------|-------------------|---------------|---------------|
-------------------|-------------------|---------------|---------------|
-------------------|-------------------|---------------|---------------|

                                        ^     ^             ^     ^
  H.              H.              Q     Q     Q       Q     Q     Q
---------------|---------------|-------12----17----|-------12----17----|
---------------|---------------|-------13----13----|-------13----13----|
---------------|---------------|-------14----14----|-------14----14----|
---------------|---------------|-------------------|-------------------|
---------------|---------------|-------------------|-------------------|
---------------|---------------|-------------------|-------------------|

        ^     ^             ^     ^
  Q     Q     Q       Q     Q     Q       H.              H.
-------12----17----|-------12----17----|---------------|---------------|
-------13----13----|-------13----13----|---------------|---------------|
-------14----14----|-------14----14----|---------------|---------------|
-------------------|-------------------|---------------|---------------|
-------------------|-------------------|---------------|---------------|
-------------------|-------------------|---------------|---------------|

  H.              H.              H.              H.
---------------|---------------|---------------|---------------|
---------------|---------------|---------------|---------------|
---------------|---------------|---------------|---------------|
---------------|---------------|---------------|---------------|
---------------|---------------|---------------|---------------|
---------------|---------------|---------------|---------------|

        ^     ^             ^     ^             ^     ^             ^     ^
  Q     Q     Q       Q     Q     Q       Q     Q     Q       Q     Q     Q
-------12----17----|-------12----17----|-------12----17----|-------12----17----|
-------13----13----|-------13----13----|-------13----13----|-------13----13----|
-------14----14----|-------14----14----|-------14----14----|-------14----14----|
-------------------|-------------------|-------------------|-------------------|
-------------------|-------------------|-------------------|-------------------|
-------------------|-------------------|-------------------|-------------------|

  H.              H.               H.              H.
--5------------|--0------------|---8------------|--3------------|
--5------------|--8------------|---8------------|--3------------|
--5------------|--9------------|---9------------|--4------------|
--7------------|--9------------|--10------------|--5------------|
--7------------|--7------------|--10------------|--5------------|
--5------------|--0------------|---8------------|--3------------|

  H.               H.              Q.     Q.        H.
--5------------|---8------------|--1------3------|--5------------|
--5------------|---8------------|--1------3------|--5------------|
--5------------|---9------------|--2------2------|--5------------|
--7------------|--10------------|--3------3------|--7------------|
--7------------|--10------------|--3------5------|--7------------|
--5------------|---8------------|--1------3------|--5------------|

  H.              H.               H.              H.
--5------------|--0------------|---8------------|--3------------|
--5------------|--8------------|---8------------|--3------------|
--5------------|--9------------|---9------------|--4------------|
--7------------|--9------------|--10------------|--5------------|
--7------------|--7------------|--10------------|--5------------|
--5------------|--0------------|---8------------|--3------------|

  H.               H.              Q.     Q.        H.
--5------------|---8------------|--1------3------|--5------------|
--5------------|---8------------|--1------3------|--5------------|
--5------------|---9------------|--2------2------|--5------------|
--7------------|--10------------|--3------3------|--7------------|
--7------------|--10------------|--3------5------|--7------------|
--5------------|---8------------|--1------3------|--5------------|

        ^     ^             ^     ^             ^     ^
  Q     Q     Q       Q     Q     Q       Q     Q     Q
-------12----17----|-------12----17----|-------12----17----|
-------13----13----|-------13----13----|-------13----13----|
-------14----14----|-------14----14----|-------14----14----|
-------------------|-------------------|-------------------|
-------------------|-------------------|-------------------|
-------------------|-------------------|-------------------|

        ^     ^
  Q     Q     Q
-------12----17----||
-------13----13----||
-------14----14----||
-------------------||
-------------------||
-------------------||

Duration Legend
---------------
W - whole
H - half
Q - quarter
E - 8th
S - 16th
T - 32nd
X - 64th
. - note dotted
|-n-|  - n-tuplets

Links